ISO-10303-21;
HEADER;
/****************************************************************
 * Generated by software with PDElib inside                    *
 * PDElib Version v51a, created Wed 11/30/2011                  *
 * ITI Transcendata (http://www.transcendata.com/)              *
 ****************************************************************/
FILE_DESCRIPTION((''),'2;1');
FILE_NAME('C:\\Users\\mario.engelhardt\\Documents\\32963000.stp','2015-03-19T07:13:56',('mario.engelhardt'),(''),'Autodesk Inventor 2013','Autodesk Inventor 2013','');
FILE_SCHEMA(('AUTOMOTIVE_DESIGN { 1 0 10303 214 1 1 1 1 }'));
ENDSEC;
DATA;
#5=APPLICATION_CONTEXT('automotive design');
#6=APPLICATION_PROTOCOL_DEFINITION('International Standard','automotive_design',2001,#5);
#7=PRODUCT_CONTEXT('',#5,'mechanical');
#8=PRODUCT('32963000','32963000',$,(#7));
#9=PRODUCT_RELATED_PRODUCT_CATEGORY('part',$,(#8));
#10=PRODUCT_DEFINITION_FORMATION('',$,#8);
#11=PRODUCT_DEFINITION_CONTEXT('part definition',#5,'design');
#12=PRODUCT_DEFINITION('',$,#10,#11);
#18=(NAMED_UNIT(*)PLANE_ANGLE_UNIT()SI_UNIT($,.RADIAN.));
#19=DIMENSIONAL_EXPONENTS(0.0,0.0,0.0,0.0,0.0,0.0,0.0);
#20=PLANE_ANGLE_MEASURE_WITH_UNIT(PLANE_ANGLE_MEASURE(0.0174532925),#18);
#24=(CONVERSION_BASED_UNIT('DEGREE',#20)NAMED_UNIT(#19)PLANE_ANGLE_UNIT());
#28=(NAMED_UNIT(*)SI_UNIT($,.STERADIAN.)SOLID_ANGLE_UNIT());
#32=(LENGTH_UNIT()NAMED_UNIT(*)SI_UNIT(.MILLI.,.METRE.));
#34=UNCERTAINTY_MEASURE_WITH_UNIT(LENGTH_MEASURE(0.01),#32,'DISTANCE_ACCURACY_VALUE','');
#36=(GEOMETRIC_REPRESENTATION_CONTEXT(3)GLOBAL_UNCERTAINTY_ASSIGNED_CONTEXT((#34))GLOBAL_UNIT_ASSIGNED_CONTEXT((#24,#28,#32))REPRESENTATION_CONTEXT('None','None'));
#37=AXIS2_PLACEMENT_3D('',#38,#39,#40);
#38=CARTESIAN_POINT('',(0.0,0.0,0.0));
#39=DIRECTION('',(0.0,0.0,1.0));
#40=DIRECTION('',(1.0,0.0,0.0));
#41=SHAPE_REPRESENTATION('',(#37),#36);
#42=PRODUCT_DEFINITION_SHAPE('','',#12);
#43=SHAPE_DEFINITION_REPRESENTATION(#42,#41);
#49=(NAMED_UNIT(*)PLANE_ANGLE_UNIT()SI_UNIT($,.RADIAN.));
#50=DIMENSIONAL_EXPONENTS(0.0,0.0,0.0,0.0,0.0,0.0,0.0);
#51=PLANE_ANGLE_MEASURE_WITH_UNIT(PLANE_ANGLE_MEASURE(0.0174532925),#49);
#55=(CONVERSION_BASED_UNIT('DEGREE',#51)NAMED_UNIT(#50)PLANE_ANGLE_UNIT());
#59=(NAMED_UNIT(*)SI_UNIT($,.STERADIAN.)SOLID_ANGLE_UNIT());
#63=(LENGTH_UNIT()NAMED_UNIT(*)SI_UNIT(.MILLI.,.METRE.));
#65=UNCERTAINTY_MEASURE_WITH_UNIT(LENGTH_MEASURE(0.000001),#63,'DISTANCE_ACCURACY_VALUE','');
#67=(GEOMETRIC_REPRESENTATION_CONTEXT(3)GLOBAL_UNCERTAINTY_ASSIGNED_CONTEXT((#65))GLOBAL_UNIT_ASSIGNED_CONTEXT((#55,#59,#63))REPRESENTATION_CONTEXT('','3D'));
#68=CARTESIAN_POINT('',(199.00000000000003,-14.000000000000002,7.5));
#69=DIRECTION('',(0.0,0.0,1.0));
#70=DIRECTION('',(1.0,0.0,0.0));
#71=AXIS2_PLACEMENT_3D('',#68,#69,#70);
#72=PLANE('',#71);
#73=CARTESIAN_POINT('',(198.5,15.5,7.5));
#74=VERTEX_POINT('',#73);
#75=CARTESIAN_POINT('',(198.5,-28.0,7.5));
#76=VERTEX_POINT('',#75);
#77=CARTESIAN_POINT('',(198.5,15.5,7.5));
#78=DIRECTION('',(0.0,-1.0,0.0));
#79=VECTOR('',#78,43.5);
#80=LINE('',#77,#79);
#81=EDGE_CURVE('',#74,#76,#80,.T.);
#82=ORIENTED_EDGE('',*,*,#81,.T.);
#83=CARTESIAN_POINT('',(198.00000000000006,-28.000000000000004,7.5));
#84=VERTEX_POINT('',#83);
#85=CARTESIAN_POINT('',(198.00000000000006,-28.000000000000004,7.5));
#86=DIRECTION('',(1.0,0.0,0.0));
#87=VECTOR('',#86,0.499999999999943);
#88=LINE('',#85,#87);
#89=EDGE_CURVE('',#84,#76,#88,.T.);
#90=ORIENTED_EDGE('',*,*,#89,.F.);
#91=CARTESIAN_POINT('',(198.00000000000006,0.0,7.5));
#92=VERTEX_POINT('',#91);
#93=CARTESIAN_POINT('',(198.00000000000006,0.0,7.5));
#94=DIRECTION('',(0.0,-1.0,0.0));
#95=VECTOR('',#94,28.0);
#96=LINE('',#93,#95);
#97=EDGE_CURVE('',#92,#84,#96,.T.);
#98=ORIENTED_EDGE('',*,*,#97,.F.);
#99=CARTESIAN_POINT('',(1.999999999999996,0.0,7.5));
#100=VERTEX_POINT('',#99);
#101=CARTESIAN_POINT('',(2.0,0.0,7.5));
#102=DIRECTION('',(1.0,0.0,0.0));
#103=VECTOR('',#102,196.00000000000006);
#104=LINE('',#101,#103);
#105=EDGE_CURVE('',#100,#92,#104,.T.);
#106=ORIENTED_EDGE('',*,*,#105,.F.);
#107=CARTESIAN_POINT('',(1.999999999999996,-28.000000000000004,7.5));
#108=VERTEX_POINT('',#107);
#109=CARTESIAN_POINT('',(1.999999999999993,-28.0,7.5));
#110=DIRECTION('',(0.0,1.0,0.0));
#111=VECTOR('',#110,28.0);
#112=LINE('',#109,#111);
#113=EDGE_CURVE('',#108,#100,#112,.T.);
#114=ORIENTED_EDGE('',*,*,#113,.F.);
#115=CARTESIAN_POINT('',(1.499999999999995,-28.0,7.5));
#116=VERTEX_POINT('',#115);
#117=CARTESIAN_POINT('',(1.5,-28.000000000000004,7.5));
#118=DIRECTION('',(1.0,0.0,0.0));
#119=VECTOR('',#118,0.499999999999986);
#120=LINE('',#117,#119);
#121=EDGE_CURVE('',#116,#108,#120,.T.);
#122=ORIENTED_EDGE('',*,*,#121,.F.);
#123=CARTESIAN_POINT('',(1.499999999999995,15.5,7.5));
#124=VERTEX_POINT('',#123);
#125=CARTESIAN_POINT('',(1.499999999999986,-27.999999999999996,7.5));
#126=DIRECTION('',(0.0,1.0,0.0));
#127=VECTOR('',#126,43.5);
#128=LINE('',#125,#127);
#129=EDGE_CURVE('',#116,#124,#128,.T.);
#130=ORIENTED_EDGE('',*,*,#129,.T.);
#131=CARTESIAN_POINT('',(1.500000000000014,15.500000000000004,7.5));
#132=DIRECTION('',(1.0,0.0,0.0));
#133=VECTOR('',#132,197.0);
#134=LINE('',#131,#133);
#135=EDGE_CURVE('',#124,#74,#134,.T.);
#136=ORIENTED_EDGE('',*,*,#135,.T.);
#137=EDGE_LOOP('',(#82,#90,#98,#106,#114,#122,#130,#136));
#138=FACE_OUTER_BOUND('',#137,.T.);
#139=ADVANCED_FACE('',(#138),#72,.F.);
#140=CARTESIAN_POINT('',(199.00000000000003,-14.000000000000002,1.5));
#141=DIRECTION('',(0.0,0.0,1.0));
#142=DIRECTION('',(1.0,0.0,0.0));
#143=AXIS2_PLACEMENT_3D('',#140,#141,#142);
#144=PLANE('',#143);
#145=CARTESIAN_POINT('',(198.5,-28.0,1.5));
#146=VERTEX_POINT('',#145);
#147=CARTESIAN_POINT('',(198.5,15.5,1.5));
#148=VERTEX_POINT('',#147);
#149=CARTESIAN_POINT('',(198.5,15.5,1.5));
#150=DIRECTION('',(0.0,-1.0,0.0));
#151=VECTOR('',#150,43.5);
#152=LINE('',#149,#151);
#153=EDGE_CURVE('',#146,#148,#152,.F.);
#154=ORIENTED_EDGE('',*,*,#153,.T.);
#155=CARTESIAN_POINT('',(1.499999999999995,15.5,1.5));
#156=VERTEX_POINT('',#155);
#157=CARTESIAN_POINT('',(1.500000000000014,15.500000000000004,1.5));
#158=DIRECTION('',(1.0,0.0,0.0));
#159=VECTOR('',#158,197.0);
#160=LINE('',#157,#159);
#161=EDGE_CURVE('',#148,#156,#160,.F.);
#162=ORIENTED_EDGE('',*,*,#161,.T.);
#163=CARTESIAN_POINT('',(1.499999999999995,-28.0,1.5));
#164=VERTEX_POINT('',#163);
#165=CARTESIAN_POINT('',(1.499999999999986,-27.999999999999996,1.5));
#166=DIRECTION('',(0.0,1.0,0.0));
#167=VECTOR('',#166,43.5);
#168=LINE('',#165,#167);
#169=EDGE_CURVE('',#156,#164,#168,.F.);
#170=ORIENTED_EDGE('',*,*,#169,.T.);
#171=CARTESIAN_POINT('',(1.999999999999996,-28.000000000000004,1.5));
#172=VERTEX_POINT('',#171);
#173=CARTESIAN_POINT('',(1.999999999999986,-28.000000000000004,1.5));
#174=DIRECTION('',(-1.0,0.0,0.0));
#175=VECTOR('',#174,0.499999999999986);
#176=LINE('',#173,#175);
#177=EDGE_CURVE('',#172,#164,#176,.T.);
#178=ORIENTED_EDGE('',*,*,#177,.F.);
#179=CARTESIAN_POINT('',(1.999999999999996,0.0,1.5));
#180=VERTEX_POINT('',#179);
#181=CARTESIAN_POINT('',(1.999999999999993,0.0,1.5));
#182=DIRECTION('',(0.0,-1.0,0.0));
#183=VECTOR('',#182,28.0);
#184=LINE('',#181,#183);
#185=EDGE_CURVE('',#180,#172,#184,.T.);
#186=ORIENTED_EDGE('',*,*,#185,.F.);
#187=CARTESIAN_POINT('',(198.00000000000006,0.0,1.5));
#188=VERTEX_POINT('',#187);
#189=CARTESIAN_POINT('',(198.00000000000006,0.0,1.5));
#190=DIRECTION('',(-1.0,0.0,0.0));
#191=VECTOR('',#190,196.00000000000006);
#192=LINE('',#189,#191);
#193=EDGE_CURVE('',#188,#180,#192,.T.);
#194=ORIENTED_EDGE('',*,*,#193,.F.);
#195=CARTESIAN_POINT('',(198.00000000000006,-28.000000000000004,1.5));
#196=VERTEX_POINT('',#195);
#197=CARTESIAN_POINT('',(198.00000000000006,-28.0,1.5));
#198=DIRECTION('',(0.0,1.0,0.0));
#199=VECTOR('',#198,28.0);
#200=LINE('',#197,#199);
#201=EDGE_CURVE('',#196,#188,#200,.T.);
#202=ORIENTED_EDGE('',*,*,#201,.F.);
#203=CARTESIAN_POINT('',(198.5,-28.000000000000004,1.5));
#204=DIRECTION('',(-1.0,0.0,0.0));
#205=VECTOR('',#204,0.499999999999943);
#206=LINE('',#203,#205);
#207=EDGE_CURVE('',#146,#196,#206,.T.);
#208=ORIENTED_EDGE('',*,*,#207,.F.);
#209=EDGE_LOOP('',(#154,#162,#170,#178,#186,#194,#202,#208));
#210=FACE_OUTER_BOUND('',#209,.T.);
#211=ADVANCED_FACE('',(#210),#144,.T.);
#212=CARTESIAN_POINT('',(198.5,0.0,0.0));
#213=DIRECTION('',(1.0,0.0,0.0));
#214=DIRECTION('',(0.0,0.0,-1.0));
#215=AXIS2_PLACEMENT_3D('',#212,#213,#214);
#216=PLANE('',#215);
#217=ORIENTED_EDGE('',*,*,#81,.F.);
#218=CARTESIAN_POINT('',(198.5,15.500000000000004,7.5));
#219=DIRECTION('',(0.0,0.0,-1.0));
#220=VECTOR('',#219,6.0);
#221=LINE('',#218,#220);
#222=EDGE_CURVE('',#148,#74,#221,.F.);
#223=ORIENTED_EDGE('',*,*,#222,.F.);
#224=ORIENTED_EDGE('',*,*,#153,.F.);
#225=CARTESIAN_POINT('',(198.5,-28.000000000000004,7.5));
#226=DIRECTION('',(0.0,0.0,-1.0));
#227=VECTOR('',#226,6.0);
#228=LINE('',#225,#227);
#229=EDGE_CURVE('',#76,#146,#228,.T.);
#230=ORIENTED_EDGE('',*,*,#229,.F.);
#231=EDGE_LOOP('',(#217,#223,#224,#230));
#232=FACE_OUTER_BOUND('',#231,.T.);
#233=ADVANCED_FACE('',(#232),#216,.F.);
#234=CARTESIAN_POINT('',(1.5,-28.000000000000004,0.0));
#235=DIRECTION('',(-1.0,0.0,0.0));
#236=DIRECTION('',(0.0,0.0,1.0));
#237=AXIS2_PLACEMENT_3D('',#234,#235,#236);
#238=PLANE('',#237);
#239=ORIENTED_EDGE('',*,*,#129,.F.);
#240=CARTESIAN_POINT('',(1.5,-28.000000000000004,1.5));
#241=DIRECTION('',(0.0,0.0,1.0));
#242=VECTOR('',#241,6.0);
#243=LINE('',#240,#242);
#244=EDGE_CURVE('',#164,#116,#243,.T.);
#245=ORIENTED_EDGE('',*,*,#244,.F.);
#246=ORIENTED_EDGE('',*,*,#169,.F.);
#247=CARTESIAN_POINT('',(1.5,15.500000000000004,1.5));
#248=DIRECTION('',(0.0,0.0,1.0));
#249=VECTOR('',#248,6.0);
#250=LINE('',#247,#249);
#251=EDGE_CURVE('',#156,#124,#250,.T.);
#252=ORIENTED_EDGE('',*,*,#251,.T.);
#253=EDGE_LOOP('',(#239,#245,#246,#252));
#254=FACE_OUTER_BOUND('',#253,.T.);
#255=ADVANCED_FACE('',(#254),#238,.F.);
#256=CARTESIAN_POINT('',(0.0,15.500000000000004,0.0));
#257=DIRECTION('',(0.0,1.0,0.0));
#258=DIRECTION('',(0.0,0.0,1.0));
#259=AXIS2_PLACEMENT_3D('',#256,#257,#258);
#260=PLANE('',#259);
#261=ORIENTED_EDGE('',*,*,#135,.F.);
#262=ORIENTED_EDGE('',*,*,#251,.F.);
#263=ORIENTED_EDGE('',*,*,#161,.F.);
#264=ORIENTED_EDGE('',*,*,#222,.T.);
#265=EDGE_LOOP('',(#261,#262,#263,#264));
#266=FACE_OUTER_BOUND('',#265,.T.);
#267=ADVANCED_FACE('',(#266),#260,.F.);
#268=CARTESIAN_POINT('',(200.0,-28.000000000000004,0.0));
#269=DIRECTION('',(0.0,-1.0,0.0));
#270=DIRECTION('',(0.0,0.0,-1.0));
#271=AXIS2_PLACEMENT_3D('',#268,#269,#270);
#272=PLANE('',#271);
#273=ORIENTED_EDGE('',*,*,#89,.T.);
#274=ORIENTED_EDGE('',*,*,#229,.T.);
#275=ORIENTED_EDGE('',*,*,#207,.T.);
#276=CARTESIAN_POINT('',(198.00000000000006,-28.000000000000004,0.0));
#277=VERTEX_POINT('',#276);
#278=CARTESIAN_POINT('',(198.00000000000006,-28.000000000000004,0.0));
#279=DIRECTION('',(0.0,0.0,1.0));
#280=VECTOR('',#279,1.5);
#281=LINE('',#278,#280);
#282=EDGE_CURVE('',#277,#196,#281,.T.);
#283=ORIENTED_EDGE('',*,*,#282,.F.);
#284=CARTESIAN_POINT('',(200.0,-28.000000000000004,0.0));
#285=VERTEX_POINT('',#284);
#286=CARTESIAN_POINT('',(198.00000000000006,-28.000000000000004,0.0));
#287=DIRECTION('',(1.0,0.0,0.0));
#288=VECTOR('',#287,1.999999999999943);
#289=LINE('',#286,#288);
#290=EDGE_CURVE('',#277,#285,#289,.T.);
#291=ORIENTED_EDGE('',*,*,#290,.T.);
#292=CARTESIAN_POINT('',(200.0,-28.000000000000004,9.0));
#293=VERTEX_POINT('',#292);
#294=CARTESIAN_POINT('',(200.0,-28.000000000000004,0.0));
#295=DIRECTION('',(0.0,0.0,1.0));
#296=VECTOR('',#295,9.0);
#297=LINE('',#294,#296);
#298=EDGE_CURVE('',#285,#293,#297,.T.);
#299=ORIENTED_EDGE('',*,*,#298,.T.);
#300=CARTESIAN_POINT('',(198.00000000000006,-28.000000000000004,9.0));
#301=VERTEX_POINT('',#300);
#302=CARTESIAN_POINT('',(200.0,-28.000000000000004,9.0));
#303=DIRECTION('',(-1.0,0.0,0.0));
#304=VECTOR('',#303,1.999999999999943);
#305=LINE('',#302,#304);
#306=EDGE_CURVE('',#293,#301,#305,.T.);
#307=ORIENTED_EDGE('',*,*,#306,.T.);
#308=CARTESIAN_POINT('',(198.00000000000006,-28.000000000000004,7.5));
#309=DIRECTION('',(0.0,0.0,1.0));
#310=VECTOR('',#309,1.5);
#311=LINE('',#308,#310);
#312=EDGE_CURVE('',#84,#301,#311,.T.);
#313=ORIENTED_EDGE('',*,*,#312,.F.);
#314=EDGE_LOOP('',(#273,#274,#275,#283,#291,#299,#307,#313));
#315=FACE_OUTER_BOUND('',#314,.T.);
#316=ADVANCED_FACE('',(#315),#272,.T.);
#317=CARTESIAN_POINT('',(198.00000000000006,-28.000000000000004,0.0));
#318=DIRECTION('',(-1.0,0.0,0.0));
#319=DIRECTION('',(0.0,0.0,1.0));
#320=AXIS2_PLACEMENT_3D('',#317,#318,#319);
#321=PLANE('',#320);
#322=ORIENTED_EDGE('',*,*,#201,.T.);
#323=CARTESIAN_POINT('',(198.00000000000006,0.0,0.0));
#324=VERTEX_POINT('',#323);
#325=CARTESIAN_POINT('',(198.00000000000006,0.0,0.0));
#326=DIRECTION('',(0.0,0.0,1.0));
#327=VECTOR('',#326,1.5);
#328=LINE('',#325,#327);
#329=EDGE_CURVE('',#324,#188,#328,.T.);
#330=ORIENTED_EDGE('',*,*,#329,.F.);
#331=CARTESIAN_POINT('',(198.00000000000006,0.0,0.0));
#332=DIRECTION('',(0.0,-1.0,0.0));
#333=VECTOR('',#332,28.000000000000004);
#334=LINE('',#331,#333);
#335=EDGE_CURVE('',#324,#277,#334,.T.);
#336=ORIENTED_EDGE('',*,*,#335,.T.);
#337=ORIENTED_EDGE('',*,*,#282,.T.);
#338=EDGE_LOOP('',(#322,#330,#336,#337));
#339=FACE_OUTER_BOUND('',#338,.T.);
#340=ADVANCED_FACE('',(#339),#321,.T.);
#341=CARTESIAN_POINT('',(200.0,0.0,0.0));
#342=DIRECTION('',(0.0,-1.0,0.0));
#343=DIRECTION('',(0.0,0.0,-1.0));
#344=AXIS2_PLACEMENT_3D('',#341,#342,#343);
#345=PLANE('',#344);
#346=ORIENTED_EDGE('',*,*,#193,.T.);
#347=CARTESIAN_POINT('',(2.0,0.0,0.0));
#348=VERTEX_POINT('',#347);
#349=CARTESIAN_POINT('',(2.0,0.0,0.0));
#350=DIRECTION('',(0.0,0.0,1.0));
#351=VECTOR('',#350,1.5);
#352=LINE('',#349,#351);
#353=EDGE_CURVE('',#348,#180,#352,.T.);
#354=ORIENTED_EDGE('',*,*,#353,.F.);
#355=CARTESIAN_POINT('',(2.0,0.0,0.0));
#356=DIRECTION('',(1.0,0.0,0.0));
#357=VECTOR('',#356,196.00000000000006);
#358=LINE('',#355,#357);
#359=EDGE_CURVE('',#348,#324,#358,.T.);
#360=ORIENTED_EDGE('',*,*,#359,.T.);
#361=ORIENTED_EDGE('',*,*,#329,.T.);
#362=EDGE_LOOP('',(#346,#354,#360,#361));
#363=FACE_OUTER_BOUND('',#362,.T.);
#364=ADVANCED_FACE('',(#363),#345,.T.);
#365=CARTESIAN_POINT('',(2.0,0.0,0.0));
#366=DIRECTION('',(1.0,0.0,0.0));
#367=DIRECTION('',(0.0,0.0,-1.0));
#368=AXIS2_PLACEMENT_3D('',#365,#366,#367);
#369=PLANE('',#368);
#370=ORIENTED_EDGE('',*,*,#185,.T.);
#371=CARTESIAN_POINT('',(2.0,-28.000000000000004,0.0));
#372=VERTEX_POINT('',#371);
#373=CARTESIAN_POINT('',(2.0,-28.000000000000004,0.0));
#374=DIRECTION('',(0.0,0.0,1.0));
#375=VECTOR('',#374,1.5);
#376=LINE('',#373,#375);
#377=EDGE_CURVE('',#372,#172,#376,.T.);
#378=ORIENTED_EDGE('',*,*,#377,.F.);
#379=CARTESIAN_POINT('',(2.0,-28.000000000000004,0.0));
#380=DIRECTION('',(0.0,1.0,0.0));
#381=VECTOR('',#380,28.000000000000004);
#382=LINE('',#379,#381);
#383=EDGE_CURVE('',#372,#348,#382,.T.);
#384=ORIENTED_EDGE('',*,*,#383,.T.);
#385=ORIENTED_EDGE('',*,*,#353,.T.);
#386=EDGE_LOOP('',(#370,#378,#384,#385));
#387=FACE_OUTER_BOUND('',#386,.T.);
#388=ADVANCED_FACE('',(#387),#369,.T.);
#389=CARTESIAN_POINT('',(200.0,0.0,0.0));
#390=DIRECTION('',(0.0,-1.0,0.0));
#391=DIRECTION('',(0.0,0.0,-1.0));
#392=AXIS2_PLACEMENT_3D('',#389,#390,#391);
#393=PLANE('',#392);
#394=ORIENTED_EDGE('',*,*,#105,.T.);
#395=CARTESIAN_POINT('',(198.00000000000006,0.0,9.0));
#396=VERTEX_POINT('',#395);
#397=CARTESIAN_POINT('',(198.00000000000006,0.0,7.5));
#398=DIRECTION('',(0.0,0.0,1.0));
#399=VECTOR('',#398,1.5);
#400=LINE('',#397,#399);
#401=EDGE_CURVE('',#92,#396,#400,.T.);
#402=ORIENTED_EDGE('',*,*,#401,.T.);
#403=CARTESIAN_POINT('',(2.0,0.0,9.0));
#404=VERTEX_POINT('',#403);
#405=CARTESIAN_POINT('',(198.00000000000006,0.0,9.0));
#406=DIRECTION('',(-1.0,0.0,0.0));
#407=VECTOR('',#406,196.00000000000006);
#408=LINE('',#405,#407);
#409=EDGE_CURVE('',#396,#404,#408,.T.);
#410=ORIENTED_EDGE('',*,*,#409,.T.);
#411=CARTESIAN_POINT('',(2.0,0.0,7.5));
#412=DIRECTION('',(0.0,0.0,1.0));
#413=VECTOR('',#412,1.5);
#414=LINE('',#411,#413);
#415=EDGE_CURVE('',#100,#404,#414,.T.);
#416=ORIENTED_EDGE('',*,*,#415,.F.);
#417=EDGE_LOOP('',(#394,#402,#410,#416));
#418=FACE_OUTER_BOUND('',#417,.T.);
#419=ADVANCED_FACE('',(#418),#393,.T.);
#420=CARTESIAN_POINT('',(0.0,17.0,0.0));
#421=DIRECTION('',(0.0,1.0,0.0));
#422=DIRECTION('',(0.0,0.0,1.0));
#423=AXIS2_PLACEMENT_3D('',#420,#421,#422);
#424=PLANE('',#423);
#425=CARTESIAN_POINT('',(0.0,17.0,9.0));
#426=VERTEX_POINT('',#425);
#427=CARTESIAN_POINT('',(200.0,17.0,9.0));
#428=VERTEX_POINT('',#427);
#429=CARTESIAN_POINT('',(0.0,17.0,9.0));
#430=DIRECTION('',(1.0,0.0,0.0));
#431=VECTOR('',#430,200.0);
#432=LINE('',#429,#431);
#433=EDGE_CURVE('',#426,#428,#432,.T.);
#434=ORIENTED_EDGE('',*,*,#433,.T.);
#435=CARTESIAN_POINT('',(200.0,17.0,0.0));
#436=VERTEX_POINT('',#435);
#437=CARTESIAN_POINT('',(200.0,17.0,0.0));
#438=DIRECTION('',(0.0,0.0,1.0));
#439=VECTOR('',#438,9.0);
#440=LINE('',#437,#439);
#441=EDGE_CURVE('',#436,#428,#440,.T.);
#442=ORIENTED_EDGE('',*,*,#441,.F.);
#443=CARTESIAN_POINT('',(0.0,17.0,0.0));
#444=VERTEX_POINT('',#443);
#445=CARTESIAN_POINT('',(200.0,17.0,0.0));
#446=DIRECTION('',(-1.0,0.0,0.0));
#447=VECTOR('',#446,200.0);
#448=LINE('',#445,#447);
#449=EDGE_CURVE('',#436,#444,#448,.T.);
#450=ORIENTED_EDGE('',*,*,#449,.T.);
#451=CARTESIAN_POINT('',(0.0,17.0,0.0));
#452=DIRECTION('',(0.0,0.0,1.0));
#453=VECTOR('',#452,9.0);
#454=LINE('',#451,#453);
#455=EDGE_CURVE('',#444,#426,#454,.T.);
#456=ORIENTED_EDGE('',*,*,#455,.T.);
#457=EDGE_LOOP('',(#434,#442,#450,#456));
#458=FACE_OUTER_BOUND('',#457,.T.);
#459=ADVANCED_FACE('',(#458),#424,.T.);
#460=CARTESIAN_POINT('',(2.0,0.0,0.0));
#461=DIRECTION('',(1.0,0.0,0.0));
#462=DIRECTION('',(0.0,0.0,-1.0));
#463=AXIS2_PLACEMENT_3D('',#460,#461,#462);
#464=PLANE('',#463);
#465=ORIENTED_EDGE('',*,*,#113,.T.);
#466=ORIENTED_EDGE('',*,*,#415,.T.);
#467=CARTESIAN_POINT('',(2.0,-28.000000000000004,9.0));
#468=VERTEX_POINT('',#467);
#469=CARTESIAN_POINT('',(2.0,0.0,9.0));
#470=DIRECTION('',(0.0,-1.0,0.0));
#471=VECTOR('',#470,28.000000000000004);
#472=LINE('',#469,#471);
#473=EDGE_CURVE('',#404,#468,#472,.T.);
#474=ORIENTED_EDGE('',*,*,#473,.T.);
#475=CARTESIAN_POINT('',(2.0,-28.000000000000004,7.5));
#476=DIRECTION('',(0.0,0.0,1.0));
#477=VECTOR('',#476,1.5);
#478=LINE('',#475,#477);
#479=EDGE_CURVE('',#108,#468,#478,.T.);
#480=ORIENTED_EDGE('',*,*,#479,.F.);
#481=EDGE_LOOP('',(#465,#466,#474,#480));
#482=FACE_OUTER_BOUND('',#481,.T.);
#483=ADVANCED_FACE('',(#482),#464,.T.);
#484=CARTESIAN_POINT('',(2.0,-28.000000000000004,0.0));
#485=DIRECTION('',(0.0,-1.0,0.0));
#486=DIRECTION('',(0.0,0.0,-1.0));
#487=AXIS2_PLACEMENT_3D('',#484,#485,#486);
#488=PLANE('',#487);
#489=ORIENTED_EDGE('',*,*,#121,.T.);
#490=ORIENTED_EDGE('',*,*,#479,.T.);
#491=CARTESIAN_POINT('',(0.0,-28.000000000000004,9.0));
#492=VERTEX_POINT('',#491);
#493=CARTESIAN_POINT('',(2.0,-28.000000000000004,9.0));
#494=DIRECTION('',(-1.0,0.0,0.0));
#495=VECTOR('',#494,2.0);
#496=LINE('',#493,#495);
#497=EDGE_CURVE('',#468,#492,#496,.T.);
#498=ORIENTED_EDGE('',*,*,#497,.T.);
#499=CARTESIAN_POINT('',(0.0,-28.000000000000004,0.0));
#500=VERTEX_POINT('',#499);
#501=CARTESIAN_POINT('',(0.0,-28.000000000000004,0.0));
#502=DIRECTION('',(0.0,0.0,1.0));
#503=VECTOR('',#502,9.0);
#504=LINE('',#501,#503);
#505=EDGE_CURVE('',#500,#492,#504,.T.);
#506=ORIENTED_EDGE('',*,*,#505,.F.);
#507=CARTESIAN_POINT('',(0.0,-28.000000000000004,0.0));
#508=DIRECTION('',(1.0,0.0,0.0));
#509=VECTOR('',#508,2.0);
#510=LINE('',#507,#509);
#511=EDGE_CURVE('',#500,#372,#510,.T.);
#512=ORIENTED_EDGE('',*,*,#511,.T.);
#513=ORIENTED_EDGE('',*,*,#377,.T.);
#514=ORIENTED_EDGE('',*,*,#177,.T.);
#515=ORIENTED_EDGE('',*,*,#244,.T.);
#516=EDGE_LOOP('',(#489,#490,#498,#506,#512,#513,#514,#515));
#517=FACE_OUTER_BOUND('',#516,.T.);
#518=ADVANCED_FACE('',(#517),#488,.T.);
#519=CARTESIAN_POINT('',(0.0,-28.000000000000004,0.0));
#520=DIRECTION('',(-1.0,0.0,0.0));
#521=DIRECTION('',(0.0,0.0,1.0));
#522=AXIS2_PLACEMENT_3D('',#519,#520,#521);
#523=PLANE('',#522);
#524=CARTESIAN_POINT('',(0.0,-28.0,9.0));
#525=DIRECTION('',(0.0,1.0,0.0));
#526=VECTOR('',#525,45.0);
#527=LINE('',#524,#526);
#528=EDGE_CURVE('',#492,#426,#527,.T.);
#529=ORIENTED_EDGE('',*,*,#528,.T.);
#530=ORIENTED_EDGE('',*,*,#455,.F.);
#531=CARTESIAN_POINT('',(0.0,17.0,0.0));
#532=DIRECTION('',(0.0,-1.0,0.0));
#533=VECTOR('',#532,45.0);
#534=LINE('',#531,#533);
#535=EDGE_CURVE('',#444,#500,#534,.T.);
#536=ORIENTED_EDGE('',*,*,#535,.T.);
#537=ORIENTED_EDGE('',*,*,#505,.T.);
#538=EDGE_LOOP('',(#529,#530,#536,#537));
#539=FACE_OUTER_BOUND('',#538,.T.);
#540=ADVANCED_FACE('',(#539),#523,.T.);
#541=CARTESIAN_POINT('',(200.0,0.0,0.0));
#542=DIRECTION('',(1.0,0.0,0.0));
#543=DIRECTION('',(0.0,0.0,-1.0));
#544=AXIS2_PLACEMENT_3D('',#541,#542,#543);
#545=PLANE('',#544);
#546=CARTESIAN_POINT('',(200.0,16.999999999999996,9.0));
#547=DIRECTION('',(0.0,-1.0,0.0));
#548=VECTOR('',#547,45.0);
#549=LINE('',#546,#548);
#550=EDGE_CURVE('',#428,#293,#549,.T.);
#551=ORIENTED_EDGE('',*,*,#550,.T.);
#552=ORIENTED_EDGE('',*,*,#298,.F.);
#553=CARTESIAN_POINT('',(200.0,-28.000000000000004,0.0));
#554=DIRECTION('',(0.0,1.0,0.0));
#555=VECTOR('',#554,45.0);
#556=LINE('',#553,#555);
#557=EDGE_CURVE('',#285,#436,#556,.T.);
#558=ORIENTED_EDGE('',*,*,#557,.T.);
#559=ORIENTED_EDGE('',*,*,#441,.T.);
#560=EDGE_LOOP('',(#551,#552,#558,#559));
#561=FACE_OUTER_BOUND('',#560,.T.);
#562=ADVANCED_FACE('',(#561),#545,.T.);
#563=CARTESIAN_POINT('',(198.00000000000006,-28.000000000000004,0.0));
#564=DIRECTION('',(-1.0,0.0,0.0));
#565=DIRECTION('',(0.0,0.0,1.0));
#566=AXIS2_PLACEMENT_3D('',#563,#564,#565);
#567=PLANE('',#566);
#568=ORIENTED_EDGE('',*,*,#97,.T.);
#569=ORIENTED_EDGE('',*,*,#312,.T.);
#570=CARTESIAN_POINT('',(198.00000000000006,-28.000000000000004,9.0));
#571=DIRECTION('',(0.0,1.0,0.0));
#572=VECTOR('',#571,28.000000000000004);
#573=LINE('',#570,#572);
#574=EDGE_CURVE('',#301,#396,#573,.T.);
#575=ORIENTED_EDGE('',*,*,#574,.T.);
#576=ORIENTED_EDGE('',*,*,#401,.F.);
#577=EDGE_LOOP('',(#568,#569,#575,#576));
#578=FACE_OUTER_BOUND('',#577,.T.);
#579=ADVANCED_FACE('',(#578),#567,.T.);
#580=CARTESIAN_POINT('',(199.00000000000003,-14.000000000000002,0.0));
#581=DIRECTION('',(0.0,0.0,1.0));
#582=DIRECTION('',(1.0,0.0,0.0));
#583=AXIS2_PLACEMENT_3D('',#580,#581,#582);
#584=PLANE('',#583);
#585=ORIENTED_EDGE('',*,*,#557,.F.);
#586=ORIENTED_EDGE('',*,*,#290,.F.);
#587=ORIENTED_EDGE('',*,*,#335,.F.);
#588=ORIENTED_EDGE('',*,*,#359,.F.);
#589=ORIENTED_EDGE('',*,*,#383,.F.);
#590=ORIENTED_EDGE('',*,*,#511,.F.);
#591=ORIENTED_EDGE('',*,*,#535,.F.);
#592=ORIENTED_EDGE('',*,*,#449,.F.);
#593=EDGE_LOOP('',(#585,#586,#587,#588,#589,#590,#591,#592));
#594=FACE_OUTER_BOUND('',#593,.T.);
#595=ADVANCED_FACE('',(#594),#584,.F.);
#596=CARTESIAN_POINT('',(199.00000000000003,-14.000000000000002,9.0));
#597=DIRECTION('',(0.0,0.0,1.0));
#598=DIRECTION('',(1.0,0.0,0.0));
#599=AXIS2_PLACEMENT_3D('',#596,#597,#598);
#600=PLANE('',#599);
#601=ORIENTED_EDGE('',*,*,#550,.F.);
#602=ORIENTED_EDGE('',*,*,#433,.F.);
#603=ORIENTED_EDGE('',*,*,#528,.F.);
#604=ORIENTED_EDGE('',*,*,#497,.F.);
#605=ORIENTED_EDGE('',*,*,#473,.F.);
#606=ORIENTED_EDGE('',*,*,#409,.F.);
#607=ORIENTED_EDGE('',*,*,#574,.F.);
#608=ORIENTED_EDGE('',*,*,#306,.F.);
#609=EDGE_LOOP('',(#601,#602,#603,#604,#605,#606,#607,#608));
#610=FACE_OUTER_BOUND('',#609,.T.);
#611=ADVANCED_FACE('',(#610),#600,.T.);
#612=CLOSED_SHELL('',(#139,#211,#233,#255,#267,#316,#340,#364,#388,#419,#459,#483,#518,#540,#562,#579,#595,#611));
#613=MANIFOLD_SOLID_BREP('Volumenk\S\vrper1',#612);
#614=COLOUR_RGB('K\X2\FFFD\X0\hles Wei\X2\FFFD\X0\',0.949999988079071,0.949999988079071,1.0);
#615=FILL_AREA_STYLE_COLOUR('K\X2\FFFD\X0\hles Wei\X2\FFFD\X0\',#614);
#616=FILL_AREA_STYLE('K\X2\FFFD\X0\hles Wei\X2\FFFD\X0\',(#615));
#617=SURFACE_STYLE_FILL_AREA(#616);
#618=SURFACE_SIDE_STYLE('K\X2\FFFD\X0\hles Wei\X2\FFFD\X0\',(#617));
#619=SURFACE_STYLE_USAGE(.BOTH.,#618);
#620=PRESENTATION_STYLE_ASSIGNMENT((#619));
#621=STYLED_ITEM('',(#620),#613);
#622=MECHANICAL_DESIGN_GEOMETRIC_PRESENTATION_REPRESENTATION('',(#621),#36);
#623=ADVANCED_BREP_SHAPE_REPRESENTATION('ABSR',(#613),#36);
#624=SHAPE_REPRESENTATION_RELATIONSHIP('SRR','None',#623,#41);
ENDSEC;
END-ISO-10303-21;
