ISO-10303-21;
HEADER;
FILE_DESCRIPTION((''),'2;1');
FILE_NAME('C-7-1393163-6','2009-12-08T',('workeradm'),(''),
'PRO/ENGINEER BY PARAMETRIC TECHNOLOGY CORPORATION, 2008380',
'PRO/ENGINEER BY PARAMETRIC TECHNOLOGY CORPORATION, 2008380','');
FILE_SCHEMA(('AUTOMOTIVE_DESIGN { 1 0 10303 214 1 1 1 1 }'));
ENDSEC;
DATA;
#13=CARTESIAN_POINT('',(6.205E0,0.E0,0.E0));
#14=DIRECTION('',(0.E0,0.E0,1.E0));
#15=DIRECTION('',(1.E0,0.E0,0.E0));
#16=AXIS2_PLACEMENT_3D('',#13,#14,#15);
#18=CARTESIAN_POINT('',(6.205E0,0.E0,0.E0));
#19=DIRECTION('',(0.E0,0.E0,1.E0));
#20=DIRECTION('',(-1.E0,0.E0,0.E0));
#21=AXIS2_PLACEMENT_3D('',#18,#19,#20);
#23=DIRECTION('',(0.E0,1.E0,0.E0));
#24=VECTOR('',#23,6.82E0);
#25=CARTESIAN_POINT('',(-1.26E0,-4.91E0,0.E0));
#26=LINE('',#25,#24);
#27=DIRECTION('',(1.E0,0.E0,0.E0));
#28=VECTOR('',#27,1.6165E1);
#29=CARTESIAN_POINT('',(-1.7425E1,-4.91E0,0.E0));
#30=LINE('',#29,#28);
#31=DIRECTION('',(0.E0,-1.E0,0.E0));
#32=VECTOR('',#31,9.82E0);
#33=CARTESIAN_POINT('',(-1.7425E1,4.91E0,0.E0));
#34=LINE('',#33,#32);
#35=DIRECTION('',(-1.E0,0.E0,0.E0));
#36=VECTOR('',#35,3.485E1);
#37=CARTESIAN_POINT('',(1.7425E1,4.91E0,0.E0));
#38=LINE('',#37,#36);
#39=DIRECTION('',(0.E0,1.E0,0.E0));
#40=VECTOR('',#39,9.82E0);
#41=CARTESIAN_POINT('',(1.7425E1,-4.91E0,0.E0));
#42=LINE('',#41,#40);
#43=DIRECTION('',(1.E0,0.E0,0.E0));
#44=VECTOR('',#43,1.6165E1);
#45=CARTESIAN_POINT('',(1.26E0,-4.91E0,0.E0));
#46=LINE('',#45,#44);
#47=DIRECTION('',(0.E0,1.E0,0.E0));
#48=VECTOR('',#47,6.82E0);
#49=CARTESIAN_POINT('',(1.26E0,-4.91E0,0.E0));
#50=LINE('',#49,#48);
#51=DIRECTION('',(-1.E0,0.E0,0.E0));
#52=VECTOR('',#51,2.52E0);
#53=CARTESIAN_POINT('',(1.26E0,1.91E0,0.E0));
#54=LINE('',#53,#52);
#55=DIRECTION('',(4.873661592641E-1,-8.731977020149E-1,0.E0));
#56=VECTOR('',#55,4.924428900898E0);
#57=CARTESIAN_POINT('',(1.113105373423E1,3.230299911958E-1,0.E0));
#58=LINE('',#57,#56);
#59=CARTESIAN_POINT('',(1.495E1,-3.185E0,0.E0));
#60=DIRECTION('',(0.E0,0.E0,1.E0));
#61=DIRECTION('',(-8.731977020149E-1,-4.873661592641E-1,0.E0));
#62=AXIS2_PLACEMENT_3D('',#59,#60,#61);
#64=DIRECTION('',(-4.873661592641E-1,8.731977020149E-1,0.E0));
#65=VECTOR('',#64,4.924428900898E0);
#66=CARTESIAN_POINT('',(1.636894626577E1,-2.393029991196E0,0.E0));
#67=LINE('',#66,#65);
#68=CARTESIAN_POINT('',(1.255E1,1.115E0,0.E0));
#69=DIRECTION('',(0.E0,0.E0,1.E0));
#70=DIRECTION('',(8.731977020149E-1,4.873661592641E-1,0.E0));
#71=AXIS2_PLACEMENT_3D('',#68,#69,#70);
#73=CARTESIAN_POINT('',(-1.5075E1,9.4E-1,0.E0));
#74=DIRECTION('',(0.E0,0.E0,1.E0));
#75=DIRECTION('',(1.E0,0.E0,0.E0));
#76=AXIS2_PLACEMENT_3D('',#73,#74,#75);
#78=CARTESIAN_POINT('',(-1.5075E1,9.4E-1,0.E0));
#79=DIRECTION('',(0.E0,0.E0,1.E0));
#80=DIRECTION('',(-1.E0,0.E0,0.E0));
#81=AXIS2_PLACEMENT_3D('',#78,#79,#80);
#83=DIRECTION('',(0.E0,0.E0,-1.E0));
#84=VECTOR('',#83,1.E0);
#85=CARTESIAN_POINT('',(8.535E0,0.E0,0.E0));
#86=LINE('',#85,#84);
#87=DIRECTION('',(0.E0,0.E0,-1.E0));
#88=VECTOR('',#87,1.E0);
#89=CARTESIAN_POINT('',(3.875E0,0.E0,0.E0));
#90=LINE('',#89,#88);
#91=CARTESIAN_POINT('',(6.205E0,0.E0,-1.E0));
#92=DIRECTION('',(0.E0,0.E0,1.E0));
#93=DIRECTION('',(1.E0,0.E0,0.E0));
#94=AXIS2_PLACEMENT_3D('',#91,#92,#93);
#96=CARTESIAN_POINT('',(6.205E0,0.E0,-1.E0));
#97=DIRECTION('',(0.E0,0.E0,1.E0));
#98=DIRECTION('',(-1.E0,0.E0,0.E0));
#99=AXIS2_PLACEMENT_3D('',#96,#97,#98);
#101=DIRECTION('',(0.E0,0.E0,1.E0));
#102=VECTOR('',#101,2.35E0);
#103=CARTESIAN_POINT('',(-1.26E0,1.91E0,0.E0));
#104=LINE('',#103,#102);
#105=DIRECTION('',(0.E0,0.E0,1.E0));
#106=VECTOR('',#105,2.35E0);
#107=CARTESIAN_POINT('',(1.26E0,1.91E0,0.E0));
#108=LINE('',#107,#106);
#109=DIRECTION('',(0.E0,0.E0,1.E0));
#110=VECTOR('',#109,2.35E0);
#111=CARTESIAN_POINT('',(1.26E0,-9.84E0,0.E0));
#112=LINE('',#111,#110);
#113=DIRECTION('',(0.E0,-1.E0,0.E0));
#114=VECTOR('',#113,4.93E0);
#115=CARTESIAN_POINT('',(-1.26E0,-4.91E0,0.E0));
#116=LINE('',#115,#114);
#117=DIRECTION('',(1.E0,0.E0,0.E0));
#118=VECTOR('',#117,2.52E0);
#119=CARTESIAN_POINT('',(-1.26E0,-9.84E0,0.E0));
#120=LINE('',#119,#118);
#121=DIRECTION('',(0.E0,1.E0,0.E0));
#122=VECTOR('',#121,4.93E0);
#123=CARTESIAN_POINT('',(1.26E0,-9.84E0,0.E0));
#124=LINE('',#123,#122);
#125=DIRECTION('',(1.E0,0.E0,0.E0));
#126=VECTOR('',#125,2.52E0);
#127=CARTESIAN_POINT('',(-1.26E0,-4.91E0,0.E0));
#128=LINE('',#127,#126);
#129=DIRECTION('',(0.E0,0.E0,-1.E0));
#130=VECTOR('',#129,3.61E1);
#131=CARTESIAN_POINT('',(-1.7425E1,-4.91E0,0.E0));
#132=LINE('',#131,#130);
#133=DIRECTION('',(0.E0,0.E0,-1.E0));
#134=VECTOR('',#133,3.61E1);
#135=CARTESIAN_POINT('',(1.7425E1,-4.91E0,0.E0));
#136=LINE('',#135,#134);
#137=DIRECTION('',(0.E0,0.E0,-1.E0));
#138=VECTOR('',#137,3.61E1);
#139=CARTESIAN_POINT('',(1.7425E1,4.91E0,0.E0));
#140=LINE('',#139,#138);
#141=DIRECTION('',(0.E0,0.E0,-1.E0));
#142=VECTOR('',#141,3.61E1);
#143=CARTESIAN_POINT('',(-1.7425E1,4.91E0,0.E0));
#144=LINE('',#143,#142);
#145=DIRECTION('',(0.E0,-1.E0,0.E0));
#146=VECTOR('',#145,9.82E0);
#147=CARTESIAN_POINT('',(-1.7425E1,4.91E0,-3.61E1));
#148=LINE('',#147,#146);
#149=DIRECTION('',(1.E0,0.E0,0.E0));
#150=VECTOR('',#149,3.485E1);
#151=CARTESIAN_POINT('',(-1.7425E1,-4.91E0,-3.61E1));
#152=LINE('',#151,#150);
#153=DIRECTION('',(0.E0,1.E0,0.E0));
#154=VECTOR('',#153,9.82E0);
#155=CARTESIAN_POINT('',(1.7425E1,-4.91E0,-3.61E1));
#156=LINE('',#155,#154);
#157=DIRECTION('',(-1.E0,0.E0,0.E0));
#158=VECTOR('',#157,3.485E1);
#159=CARTESIAN_POINT('',(1.7425E1,4.91E0,-3.61E1));
#160=LINE('',#159,#158);
#161=DIRECTION('',(0.E0,0.E0,1.E0));
#162=VECTOR('',#161,2.35E0);
#163=CARTESIAN_POINT('',(-1.26E0,-9.84E0,0.E0));
#164=LINE('',#163,#162);
#165=DIRECTION('',(0.E0,-1.E0,0.E0));
#166=VECTOR('',#165,1.175E1);
#167=CARTESIAN_POINT('',(-1.26E0,1.91E0,2.35E0));
#168=LINE('',#167,#166);
#169=DIRECTION('',(-1.E0,0.E0,0.E0));
#170=VECTOR('',#169,2.52E0);
#171=CARTESIAN_POINT('',(1.26E0,1.91E0,2.35E0));
#172=LINE('',#171,#170);
#173=DIRECTION('',(0.E0,1.E0,0.E0));
#174=VECTOR('',#173,1.175E1);
#175=CARTESIAN_POINT('',(1.26E0,-9.84E0,2.35E0));
#176=LINE('',#175,#174);
#177=DIRECTION('',(1.E0,0.E0,0.E0));
#178=VECTOR('',#177,2.52E0);
#179=CARTESIAN_POINT('',(-1.26E0,-9.84E0,2.35E0));
#180=LINE('',#179,#178);
#181=DIRECTION('',(0.E0,0.E0,1.E0));
#182=VECTOR('',#181,7.44E0);
#183=CARTESIAN_POINT('',(1.113105373423E1,3.230299911958E-1,0.E0));
#184=LINE('',#183,#182);
#185=DIRECTION('',(0.E0,0.E0,1.E0));
#186=VECTOR('',#185,7.44E0);
#187=CARTESIAN_POINT('',(1.396894626577E1,1.906970008804E0,0.E0));
#188=LINE('',#187,#186);
#189=DIRECTION('',(0.E0,0.E0,1.E0));
#190=VECTOR('',#189,7.44E0);
#191=CARTESIAN_POINT('',(1.636894626577E1,-2.393029991196E0,0.E0));
#192=LINE('',#191,#190);
#193=DIRECTION('',(0.E0,0.E0,1.E0));
#194=VECTOR('',#193,7.44E0);
#195=CARTESIAN_POINT('',(1.353105373423E1,-3.976970008804E0,0.E0));
#196=LINE('',#195,#194);
#197=DIRECTION('',(4.873661592641E-1,-8.731977020149E-1,0.E0));
#198=VECTOR('',#197,4.924428900898E0);
#199=CARTESIAN_POINT('',(1.113105373423E1,3.230299911958E-1,7.44E0));
#200=LINE('',#199,#198);
#201=CARTESIAN_POINT('',(1.255E1,1.115E0,7.44E0));
#202=DIRECTION('',(0.E0,0.E0,1.E0));
#203=DIRECTION('',(8.731977020149E-1,4.873661592641E-1,0.E0));
#204=AXIS2_PLACEMENT_3D('',#201,#202,#203);
#206=DIRECTION('',(-4.873661592641E-1,8.731977020149E-1,0.E0));
#207=VECTOR('',#206,4.924428900898E0);
#208=CARTESIAN_POINT('',(1.636894626577E1,-2.393029991196E0,7.44E0));
#209=LINE('',#208,#207);
#210=CARTESIAN_POINT('',(1.495E1,-3.185E0,7.44E0));
#211=DIRECTION('',(0.E0,0.E0,1.E0));
#212=DIRECTION('',(-8.731977020149E-1,-4.873661592641E-1,0.E0));
#213=AXIS2_PLACEMENT_3D('',#210,#211,#212);
#215=DIRECTION('',(0.E0,0.E0,1.E0));
#216=VECTOR('',#215,7.95E0);
#217=CARTESIAN_POINT('',(-1.3425E1,9.4E-1,0.E0));
#218=LINE('',#217,#216);
#219=DIRECTION('',(0.E0,0.E0,1.E0));
#220=VECTOR('',#219,7.95E0);
#221=CARTESIAN_POINT('',(-1.6725E1,9.4E-1,0.E0));
#222=LINE('',#221,#220);
#223=CARTESIAN_POINT('',(-1.5075E1,9.4E-1,7.95E0));
#224=DIRECTION('',(0.E0,0.E0,1.E0));
#225=DIRECTION('',(1.E0,0.E0,0.E0));
#226=AXIS2_PLACEMENT_3D('',#223,#224,#225);
#228=CARTESIAN_POINT('',(-1.5075E1,9.4E-1,7.95E0));
#229=DIRECTION('',(0.E0,0.E0,1.E0));
#230=DIRECTION('',(-1.E0,0.E0,0.E0));
#231=AXIS2_PLACEMENT_3D('',#228,#229,#230);
#233=CARTESIAN_POINT('',(-1.7425E1,4.91E0,0.E0));
#234=CARTESIAN_POINT('',(-1.7425E1,-4.91E0,0.E0));
#235=VERTEX_POINT('',#233);
#236=VERTEX_POINT('',#234);
#237=CARTESIAN_POINT('',(1.7425E1,-4.91E0,0.E0));
#238=CARTESIAN_POINT('',(1.7425E1,4.91E0,0.E0));
#239=VERTEX_POINT('',#237);
#240=VERTEX_POINT('',#238);
#241=CARTESIAN_POINT('',(-1.7425E1,4.91E0,-3.61E1));
#242=CARTESIAN_POINT('',(-1.7425E1,-4.91E0,-3.61E1));
#243=VERTEX_POINT('',#241);
#244=VERTEX_POINT('',#242);
#245=CARTESIAN_POINT('',(1.7425E1,-4.91E0,-3.61E1));
#246=VERTEX_POINT('',#245);
#247=CARTESIAN_POINT('',(1.7425E1,4.91E0,-3.61E1));
#248=VERTEX_POINT('',#247);
#249=CARTESIAN_POINT('',(8.535E0,0.E0,-1.E0));
#250=CARTESIAN_POINT('',(3.875E0,0.E0,-1.E0));
#251=VERTEX_POINT('',#249);
#252=VERTEX_POINT('',#250);
#253=CARTESIAN_POINT('',(8.535E0,0.E0,0.E0));
#254=CARTESIAN_POINT('',(3.875E0,0.E0,0.E0));
#255=VERTEX_POINT('',#253);
#256=VERTEX_POINT('',#254);
#257=CARTESIAN_POINT('',(-1.26E0,-9.84E0,0.E0));
#258=CARTESIAN_POINT('',(1.26E0,-9.84E0,0.E0));
#259=VERTEX_POINT('',#257);
#260=VERTEX_POINT('',#258);
#261=CARTESIAN_POINT('',(-1.26E0,1.91E0,2.35E0));
#262=CARTESIAN_POINT('',(-1.26E0,-9.84E0,2.35E0));
#263=VERTEX_POINT('',#261);
#264=VERTEX_POINT('',#262);
#265=CARTESIAN_POINT('',(1.26E0,-9.84E0,2.35E0));
#266=VERTEX_POINT('',#265);
#267=CARTESIAN_POINT('',(1.26E0,1.91E0,2.35E0));
#268=VERTEX_POINT('',#267);
#269=CARTESIAN_POINT('',(-1.26E0,-4.91E0,0.E0));
#270=CARTESIAN_POINT('',(-1.26E0,1.91E0,0.E0));
#271=VERTEX_POINT('',#269);
#272=VERTEX_POINT('',#270);
#273=CARTESIAN_POINT('',(1.26E0,-4.91E0,0.E0));
#274=CARTESIAN_POINT('',(1.26E0,1.91E0,0.E0));
#275=VERTEX_POINT('',#273);
#276=VERTEX_POINT('',#274);
#277=CARTESIAN_POINT('',(1.113105373423E1,3.230299911958E-1,7.44E0));
#278=CARTESIAN_POINT('',(1.353105373423E1,-3.976970008804E0,7.44E0));
#279=VERTEX_POINT('',#277);
#280=VERTEX_POINT('',#278);
#281=CARTESIAN_POINT('',(1.636894626577E1,-2.393029991196E0,7.44E0));
#282=VERTEX_POINT('',#281);
#283=CARTESIAN_POINT('',(1.396894626577E1,1.906970008804E0,7.44E0));
#284=VERTEX_POINT('',#283);
#285=CARTESIAN_POINT('',(1.113105373423E1,3.230299911958E-1,0.E0));
#286=CARTESIAN_POINT('',(1.353105373423E1,-3.976970008804E0,0.E0));
#287=VERTEX_POINT('',#285);
#288=VERTEX_POINT('',#286);
#289=CARTESIAN_POINT('',(1.636894626577E1,-2.393029991196E0,0.E0));
#290=VERTEX_POINT('',#289);
#291=CARTESIAN_POINT('',(1.396894626577E1,1.906970008804E0,0.E0));
#292=VERTEX_POINT('',#291);
#293=CARTESIAN_POINT('',(-1.3425E1,9.4E-1,7.95E0));
#294=CARTESIAN_POINT('',(-1.6725E1,9.4E-1,7.95E0));
#295=VERTEX_POINT('',#293);
#296=VERTEX_POINT('',#294);
#297=CARTESIAN_POINT('',(-1.3425E1,9.4E-1,0.E0));
#298=CARTESIAN_POINT('',(-1.6725E1,9.4E-1,0.E0));
#299=VERTEX_POINT('',#297);
#300=VERTEX_POINT('',#298);
#301=CARTESIAN_POINT('',(0.E0,0.E0,0.E0));
#302=DIRECTION('',(0.E0,0.E0,1.E0));
#303=DIRECTION('',(1.E0,0.E0,0.E0));
#304=AXIS2_PLACEMENT_3D('',#301,#302,#303);
#305=PLANE('',#304);
#307=ORIENTED_EDGE('',*,*,#306,.F.);
#309=ORIENTED_EDGE('',*,*,#308,.F.);
#311=ORIENTED_EDGE('',*,*,#310,.F.);
#313=ORIENTED_EDGE('',*,*,#312,.F.);
#315=ORIENTED_EDGE('',*,*,#314,.F.);
#317=ORIENTED_EDGE('',*,*,#316,.F.);
#319=ORIENTED_EDGE('',*,*,#318,.T.);
#321=ORIENTED_EDGE('',*,*,#320,.T.);
#322=EDGE_LOOP('',(#307,#309,#311,#313,#315,#317,#319,#321));
#323=FACE_OUTER_BOUND('',#322,.F.);
#325=ORIENTED_EDGE('',*,*,#324,.T.);
#327=ORIENTED_EDGE('',*,*,#326,.T.);
#328=EDGE_LOOP('',(#325,#327));
#329=FACE_BOUND('',#328,.F.);
#331=ORIENTED_EDGE('',*,*,#330,.T.);
#333=ORIENTED_EDGE('',*,*,#332,.T.);
#335=ORIENTED_EDGE('',*,*,#334,.T.);
#337=ORIENTED_EDGE('',*,*,#336,.T.);
#338=EDGE_LOOP('',(#331,#333,#335,#337));
#339=FACE_BOUND('',#338,.F.);
#341=ORIENTED_EDGE('',*,*,#340,.T.);
#343=ORIENTED_EDGE('',*,*,#342,.T.);
#344=EDGE_LOOP('',(#341,#343));
#345=FACE_BOUND('',#344,.F.);
#347=CARTESIAN_POINT('',(6.205E0,0.E0,0.E0));
#348=DIRECTION('',(0.E0,0.E0,1.E0));
#349=DIRECTION('',(1.E0,0.E0,0.E0));
#350=AXIS2_PLACEMENT_3D('',#347,#348,#349);
#351=CYLINDRICAL_SURFACE('',#350,2.33E0);
#352=ORIENTED_EDGE('',*,*,#324,.F.);
#354=ORIENTED_EDGE('',*,*,#353,.T.);
#356=ORIENTED_EDGE('',*,*,#355,.T.);
#358=ORIENTED_EDGE('',*,*,#357,.F.);
#359=EDGE_LOOP('',(#352,#354,#356,#358));
#360=FACE_OUTER_BOUND('',#359,.F.);
#362=CARTESIAN_POINT('',(6.205E0,0.E0,0.E0));
#363=DIRECTION('',(0.E0,0.E0,1.E0));
#364=DIRECTION('',(1.E0,0.E0,0.E0));
#365=AXIS2_PLACEMENT_3D('',#362,#363,#364);
#366=CYLINDRICAL_SURFACE('',#365,2.33E0);
#367=ORIENTED_EDGE('',*,*,#326,.F.);
#368=ORIENTED_EDGE('',*,*,#357,.T.);
#370=ORIENTED_EDGE('',*,*,#369,.T.);
#371=ORIENTED_EDGE('',*,*,#353,.F.);
#372=EDGE_LOOP('',(#367,#368,#370,#371));
#373=FACE_OUTER_BOUND('',#372,.F.);
#375=CARTESIAN_POINT('',(0.E0,0.E0,-1.E0));
#376=DIRECTION('',(0.E0,0.E0,1.E0));
#377=DIRECTION('',(1.E0,0.E0,0.E0));
#378=AXIS2_PLACEMENT_3D('',#375,#376,#377);
#379=PLANE('',#378);
#380=ORIENTED_EDGE('',*,*,#355,.F.);
#381=ORIENTED_EDGE('',*,*,#369,.F.);
#382=EDGE_LOOP('',(#380,#381));
#383=FACE_OUTER_BOUND('',#382,.F.);
#385=CARTESIAN_POINT('',(-1.26E0,1.91E0,0.E0));
#386=DIRECTION('',(-1.E0,0.E0,0.E0));
#387=DIRECTION('',(0.E0,-1.E0,0.E0));
#388=AXIS2_PLACEMENT_3D('',#385,#386,#387);
#389=PLANE('',#388);
#390=ORIENTED_EDGE('',*,*,#306,.T.);
#392=ORIENTED_EDGE('',*,*,#391,.T.);
#394=ORIENTED_EDGE('',*,*,#393,.T.);
#396=ORIENTED_EDGE('',*,*,#395,.F.);
#398=ORIENTED_EDGE('',*,*,#397,.F.);
#399=EDGE_LOOP('',(#390,#392,#394,#396,#398));
#400=FACE_OUTER_BOUND('',#399,.F.);
#402=CARTESIAN_POINT('',(1.26E0,1.91E0,0.E0));
#403=DIRECTION('',(0.E0,1.E0,0.E0));
#404=DIRECTION('',(-1.E0,0.E0,0.E0));
#405=AXIS2_PLACEMENT_3D('',#402,#403,#404);
#406=PLANE('',#405);
#407=ORIENTED_EDGE('',*,*,#320,.F.);
#409=ORIENTED_EDGE('',*,*,#408,.T.);
#411=ORIENTED_EDGE('',*,*,#410,.T.);
#412=ORIENTED_EDGE('',*,*,#391,.F.);
#413=EDGE_LOOP('',(#407,#409,#411,#412));
#414=FACE_OUTER_BOUND('',#413,.F.);
#416=CARTESIAN_POINT('',(1.26E0,-9.84E0,0.E0));
#417=DIRECTION('',(1.E0,0.E0,0.E0));
#418=DIRECTION('',(0.E0,1.E0,0.E0));
#419=AXIS2_PLACEMENT_3D('',#416,#417,#418);
#420=PLANE('',#419);
#421=ORIENTED_EDGE('',*,*,#318,.F.);
#423=ORIENTED_EDGE('',*,*,#422,.F.);
#425=ORIENTED_EDGE('',*,*,#424,.T.);
#427=ORIENTED_EDGE('',*,*,#426,.T.);
#428=ORIENTED_EDGE('',*,*,#408,.F.);
#429=EDGE_LOOP('',(#421,#423,#425,#427,#428));
#430=FACE_OUTER_BOUND('',#429,.F.);
#432=CARTESIAN_POINT('',(0.E0,0.E0,0.E0));
#433=DIRECTION('',(0.E0,0.E0,1.E0));
#434=DIRECTION('',(1.E0,0.E0,0.E0));
#435=AXIS2_PLACEMENT_3D('',#432,#433,#434);
#436=PLANE('',#435);
#438=ORIENTED_EDGE('',*,*,#437,.F.);
#439=ORIENTED_EDGE('',*,*,#397,.T.);
#441=ORIENTED_EDGE('',*,*,#440,.T.);
#442=ORIENTED_EDGE('',*,*,#422,.T.);
#443=EDGE_LOOP('',(#438,#439,#441,#442));
#444=FACE_OUTER_BOUND('',#443,.F.);
#446=CARTESIAN_POINT('',(-1.7425E1,-4.91E0,0.E0));
#447=DIRECTION('',(0.E0,-1.E0,0.E0));
#448=DIRECTION('',(1.E0,0.E0,0.E0));
#449=AXIS2_PLACEMENT_3D('',#446,#447,#448);
#450=PLANE('',#449);
#451=ORIENTED_EDGE('',*,*,#437,.T.);
#452=ORIENTED_EDGE('',*,*,#316,.T.);
#454=ORIENTED_EDGE('',*,*,#453,.T.);
#456=ORIENTED_EDGE('',*,*,#455,.F.);
#458=ORIENTED_EDGE('',*,*,#457,.F.);
#459=ORIENTED_EDGE('',*,*,#308,.T.);
#460=EDGE_LOOP('',(#451,#452,#454,#456,#458,#459));
#461=FACE_OUTER_BOUND('',#460,.F.);
#463=CARTESIAN_POINT('',(1.7425E1,-4.91E0,0.E0));
#464=DIRECTION('',(1.E0,0.E0,0.E0));
#465=DIRECTION('',(0.E0,1.E0,0.E0));
#466=AXIS2_PLACEMENT_3D('',#463,#464,#465);
#467=PLANE('',#466);
#468=ORIENTED_EDGE('',*,*,#314,.T.);
#470=ORIENTED_EDGE('',*,*,#469,.T.);
#472=ORIENTED_EDGE('',*,*,#471,.F.);
#473=ORIENTED_EDGE('',*,*,#453,.F.);
#474=EDGE_LOOP('',(#468,#470,#472,#473));
#475=FACE_OUTER_BOUND('',#474,.F.);
#477=CARTESIAN_POINT('',(1.7425E1,4.91E0,0.E0));
#478=DIRECTION('',(0.E0,1.E0,0.E0));
#479=DIRECTION('',(-1.E0,0.E0,0.E0));
#480=AXIS2_PLACEMENT_3D('',#477,#478,#479);
#481=PLANE('',#480);
#482=ORIENTED_EDGE('',*,*,#312,.T.);
#484=ORIENTED_EDGE('',*,*,#483,.T.);
#486=ORIENTED_EDGE('',*,*,#485,.F.);
#487=ORIENTED_EDGE('',*,*,#469,.F.);
#488=EDGE_LOOP('',(#482,#484,#486,#487));
#489=FACE_OUTER_BOUND('',#488,.F.);
#491=CARTESIAN_POINT('',(-1.7425E1,4.91E0,0.E0));
#492=DIRECTION('',(-1.E0,0.E0,0.E0));
#493=DIRECTION('',(0.E0,-1.E0,0.E0));
#494=AXIS2_PLACEMENT_3D('',#491,#492,#493);
#495=PLANE('',#494);
#496=ORIENTED_EDGE('',*,*,#310,.T.);
#497=ORIENTED_EDGE('',*,*,#457,.T.);
#499=ORIENTED_EDGE('',*,*,#498,.F.);
#500=ORIENTED_EDGE('',*,*,#483,.F.);
#501=EDGE_LOOP('',(#496,#497,#499,#500));
#502=FACE_OUTER_BOUND('',#501,.F.);
#504=CARTESIAN_POINT('',(0.E0,0.E0,-3.61E1));
#505=DIRECTION('',(0.E0,0.E0,1.E0));
#506=DIRECTION('',(1.E0,0.E0,0.E0));
#507=AXIS2_PLACEMENT_3D('',#504,#505,#506);
#508=PLANE('',#507);
#509=ORIENTED_EDGE('',*,*,#498,.T.);
#510=ORIENTED_EDGE('',*,*,#455,.T.);
#511=ORIENTED_EDGE('',*,*,#471,.T.);
#512=ORIENTED_EDGE('',*,*,#485,.T.);
#513=EDGE_LOOP('',(#509,#510,#511,#512));
#514=FACE_OUTER_BOUND('',#513,.F.);
#516=CARTESIAN_POINT('',(-1.26E0,-9.84E0,0.E0));
#517=DIRECTION('',(0.E0,-1.E0,0.E0));
#518=DIRECTION('',(1.E0,0.E0,0.E0));
#519=AXIS2_PLACEMENT_3D('',#516,#517,#518);
#520=PLANE('',#519);
#521=ORIENTED_EDGE('',*,*,#440,.F.);
#522=ORIENTED_EDGE('',*,*,#395,.T.);
#524=ORIENTED_EDGE('',*,*,#523,.T.);
#525=ORIENTED_EDGE('',*,*,#424,.F.);
#526=EDGE_LOOP('',(#521,#522,#524,#525));
#527=FACE_OUTER_BOUND('',#526,.F.);
#529=CARTESIAN_POINT('',(0.E0,0.E0,2.35E0));
#530=DIRECTION('',(0.E0,0.E0,1.E0));
#531=DIRECTION('',(1.E0,0.E0,0.E0));
#532=AXIS2_PLACEMENT_3D('',#529,#530,#531);
#533=PLANE('',#532);
#534=ORIENTED_EDGE('',*,*,#393,.F.);
#535=ORIENTED_EDGE('',*,*,#410,.F.);
#536=ORIENTED_EDGE('',*,*,#426,.F.);
#537=ORIENTED_EDGE('',*,*,#523,.F.);
#538=EDGE_LOOP('',(#534,#535,#536,#537));
#539=FACE_OUTER_BOUND('',#538,.F.);
#541=CARTESIAN_POINT('',(1.113105373423E1,3.230299911958E-1,0.E0));
#542=DIRECTION('',(-8.731977020149E-1,-4.873661592641E-1,0.E0));
#543=DIRECTION('',(4.873661592641E-1,-8.731977020149E-1,0.E0));
#544=AXIS2_PLACEMENT_3D('',#541,#542,#543);
#545=PLANE('',#544);
#546=ORIENTED_EDGE('',*,*,#330,.F.);
#548=ORIENTED_EDGE('',*,*,#547,.T.);
#550=ORIENTED_EDGE('',*,*,#549,.T.);
#552=ORIENTED_EDGE('',*,*,#551,.F.);
#553=EDGE_LOOP('',(#546,#548,#550,#552));
#554=FACE_OUTER_BOUND('',#553,.F.);
#556=CARTESIAN_POINT('',(1.255E1,1.115E0,0.E0));
#557=DIRECTION('',(0.E0,0.E0,1.E0));
#558=DIRECTION('',(1.E0,0.E0,0.E0));
#559=AXIS2_PLACEMENT_3D('',#556,#557,#558);
#560=CYLINDRICAL_SURFACE('',#559,1.625E0);
#561=ORIENTED_EDGE('',*,*,#336,.F.);
#563=ORIENTED_EDGE('',*,*,#562,.T.);
#565=ORIENTED_EDGE('',*,*,#564,.T.);
#566=ORIENTED_EDGE('',*,*,#547,.F.);
#567=EDGE_LOOP('',(#561,#563,#565,#566));
#568=FACE_OUTER_BOUND('',#567,.F.);
#570=CARTESIAN_POINT('',(1.636894626577E1,-2.393029991196E0,0.E0));
#571=DIRECTION('',(8.731977020149E-1,4.873661592641E-1,0.E0));
#572=DIRECTION('',(-4.873661592641E-1,8.731977020149E-1,0.E0));
#573=AXIS2_PLACEMENT_3D('',#570,#571,#572);
#574=PLANE('',#573);
#575=ORIENTED_EDGE('',*,*,#334,.F.);
#577=ORIENTED_EDGE('',*,*,#576,.T.);
#579=ORIENTED_EDGE('',*,*,#578,.T.);
#580=ORIENTED_EDGE('',*,*,#562,.F.);
#581=EDGE_LOOP('',(#575,#577,#579,#580));
#582=FACE_OUTER_BOUND('',#581,.F.);
#584=CARTESIAN_POINT('',(1.495E1,-3.185E0,0.E0));
#585=DIRECTION('',(0.E0,0.E0,1.E0));
#586=DIRECTION('',(1.E0,0.E0,0.E0));
#587=AXIS2_PLACEMENT_3D('',#584,#585,#586);
#588=CYLINDRICAL_SURFACE('',#587,1.625E0);
#589=ORIENTED_EDGE('',*,*,#332,.F.);
#590=ORIENTED_EDGE('',*,*,#551,.T.);
#592=ORIENTED_EDGE('',*,*,#591,.T.);
#593=ORIENTED_EDGE('',*,*,#576,.F.);
#594=EDGE_LOOP('',(#589,#590,#592,#593));
#595=FACE_OUTER_BOUND('',#594,.F.);
#597=CARTESIAN_POINT('',(0.E0,0.E0,7.44E0));
#598=DIRECTION('',(0.E0,0.E0,1.E0));
#599=DIRECTION('',(1.E0,0.E0,0.E0));
#600=AXIS2_PLACEMENT_3D('',#597,#598,#599);
#601=PLANE('',#600);
#602=ORIENTED_EDGE('',*,*,#549,.F.);
#603=ORIENTED_EDGE('',*,*,#564,.F.);
#604=ORIENTED_EDGE('',*,*,#578,.F.);
#605=ORIENTED_EDGE('',*,*,#591,.F.);
#606=EDGE_LOOP('',(#602,#603,#604,#605));
#607=FACE_OUTER_BOUND('',#606,.F.);
#609=CARTESIAN_POINT('',(-1.5075E1,9.4E-1,0.E0));
#610=DIRECTION('',(0.E0,0.E0,1.E0));
#611=DIRECTION('',(1.E0,0.E0,0.E0));
#612=AXIS2_PLACEMENT_3D('',#609,#610,#611);
#613=CYLINDRICAL_SURFACE('',#612,1.65E0);
#614=ORIENTED_EDGE('',*,*,#340,.F.);
#616=ORIENTED_EDGE('',*,*,#615,.T.);
#618=ORIENTED_EDGE('',*,*,#617,.T.);
#620=ORIENTED_EDGE('',*,*,#619,.F.);
#621=EDGE_LOOP('',(#614,#616,#618,#620));
#622=FACE_OUTER_BOUND('',#621,.F.);
#624=CARTESIAN_POINT('',(-1.5075E1,9.4E-1,0.E0));
#625=DIRECTION('',(0.E0,0.E0,1.E0));
#626=DIRECTION('',(1.E0,0.E0,0.E0));
#627=AXIS2_PLACEMENT_3D('',#624,#625,#626);
#628=CYLINDRICAL_SURFACE('',#627,1.65E0);
#629=ORIENTED_EDGE('',*,*,#342,.F.);
#630=ORIENTED_EDGE('',*,*,#619,.T.);
#632=ORIENTED_EDGE('',*,*,#631,.T.);
#633=ORIENTED_EDGE('',*,*,#615,.F.);
#634=EDGE_LOOP('',(#629,#630,#632,#633));
#635=FACE_OUTER_BOUND('',#634,.F.);
#637=CARTESIAN_POINT('',(0.E0,0.E0,7.95E0));
#638=DIRECTION('',(0.E0,0.E0,1.E0));
#639=DIRECTION('',(1.E0,0.E0,0.E0));
#640=AXIS2_PLACEMENT_3D('',#637,#638,#639);
#641=PLANE('',#640);
#642=ORIENTED_EDGE('',*,*,#617,.F.);
#643=ORIENTED_EDGE('',*,*,#631,.F.);
#644=EDGE_LOOP('',(#642,#643));
#645=FACE_OUTER_BOUND('',#644,.F.);
#647=CLOSED_SHELL('',(#346,#361,#374,#384,#401,#415,#431,#445,#462,#476,#490,
#503,#515,#528,#540,#555,#569,#583,#596,#608,#623,#636,#646));
#648=MANIFOLD_SOLID_BREP('',#647);
#649=(LENGTH_UNIT()NAMED_UNIT(*)SI_UNIT(.MILLI.,.METRE.));
#650=DIMENSIONAL_EXPONENTS(0.E0,0.E0,0.E0,0.E0,0.E0,0.E0,0.E0);
#651=(NAMED_UNIT(*)PLANE_ANGLE_UNIT()SI_UNIT($,.RADIAN.));
#652=PLANE_ANGLE_MEASURE_WITH_UNIT(PLANE_ANGLE_MEASURE(1.745329251994E-2),#651);
#653=(CONVERSION_BASED_UNIT('DEGREE',#652)NAMED_UNIT(#650)PLANE_ANGLE_UNIT());
#654=(NAMED_UNIT(*)SI_UNIT($,.STERADIAN.)SOLID_ANGLE_UNIT());
#655=UNCERTAINTY_MEASURE_WITH_UNIT(LENGTH_MEASURE(5.807079908522E-3),#649,
'distance_accuracy_value',
'Maximum model space distance between geometric entities at asserted connectivities');
#658=APPLICATION_CONTEXT('automotive_design');
#659=APPLICATION_PROTOCOL_DEFINITION('international standard',
'automotive_design',2001,#658);
#660=PRODUCT_DEFINITION_CONTEXT('part definition',#658,'design');
#661=PRODUCT_CONTEXT('',#658,'mechanical');
#662=PRODUCT('C-7-1393163-6','C-7-1393163-6','NOT SPECIFIED',(#661));
#663=PRODUCT_DEFINITION_FORMATION('1','LAST_VERSION',#662);
#670=(LENGTH_UNIT()NAMED_UNIT(*)SI_UNIT(.MILLI.,.METRE.));
#671=DERIVED_UNIT_ELEMENT(#670,2.E0);
#672=DERIVED_UNIT((#671));
#673=MEASURE_REPRESENTATION_ITEM('surface area measure',AREA_MEASURE(
4.247842917442E3),#672);
#677=(LENGTH_UNIT()NAMED_UNIT(*)SI_UNIT(.MILLI.,.METRE.));
#678=DERIVED_UNIT_ELEMENT(#677,3.E0);
#679=DERIVED_UNIT((#678));
#680=MEASURE_REPRESENTATION_ITEM('volume measure',VOLUME_MEASURE(
1.265571243351E4),#679);
#684=CARTESIAN_POINT('centre point',(1.070689137830E-1,-3.153382220476E-2,
-1.753861757563E1));
#689=PRODUCT_RELATED_PRODUCT_CATEGORY('part','',(#662));
#1=DRAUGHTING_PRE_DEFINED_COLOUR('green');
#2=COLOUR_RGB('',1.1E-2,1.2E-2,1.E0);
#3=COLOUR_RGB('',1.1E-1,1.1E-1,1.1E-1);
#4=COLOUR_RGB('',3.92E-1,1.2E-2,1.2E-2);
#5=COLOUR_RGB('',4.1E-1,0.E0,2.2E-1);
#6=COLOUR_RGB('',8.784E-1,9.49E-1,1.E0);
#7=COLOUR_RGB('',9.6E-1,9.6E-1,9.6E-1);
#8=COLOUR_RGB('',9.8E-1,6.27E-1,0.E0);
#9=DRAUGHTING_PRE_DEFINED_COLOUR('red');
#10=DRAUGHTING_PRE_DEFINED_COLOUR('yellow');
#11=COLOUR_RGB('',1.E0,1.E0,9.49E-1);
#12=DRAUGHTING_PRE_DEFINED_COLOUR('white');
#17=CIRCLE('',#16,2.33E0);
#22=CIRCLE('',#21,2.33E0);
#63=CIRCLE('',#62,1.625E0);
#72=CIRCLE('',#71,1.625E0);
#77=CIRCLE('',#76,1.65E0);
#82=CIRCLE('',#81,1.65E0);
#95=CIRCLE('',#94,2.33E0);
#100=CIRCLE('',#99,2.33E0);
#205=CIRCLE('',#204,1.625E0);
#214=CIRCLE('',#213,1.625E0);
#227=CIRCLE('',#226,1.65E0);
#232=CIRCLE('',#231,1.65E0);
#306=EDGE_CURVE('',#271,#272,#26,.T.);
#308=EDGE_CURVE('',#236,#271,#30,.T.);
#310=EDGE_CURVE('',#235,#236,#34,.T.);
#312=EDGE_CURVE('',#240,#235,#38,.T.);
#314=EDGE_CURVE('',#239,#240,#42,.T.);
#316=EDGE_CURVE('',#275,#239,#46,.T.);
#318=EDGE_CURVE('',#275,#276,#50,.T.);
#320=EDGE_CURVE('',#276,#272,#54,.T.);
#324=EDGE_CURVE('',#255,#256,#17,.T.);
#326=EDGE_CURVE('',#256,#255,#22,.T.);
#330=EDGE_CURVE('',#287,#288,#58,.T.);
#332=EDGE_CURVE('',#288,#290,#63,.T.);
#334=EDGE_CURVE('',#290,#292,#67,.T.);
#336=EDGE_CURVE('',#292,#287,#72,.T.);
#340=EDGE_CURVE('',#299,#300,#77,.T.);
#342=EDGE_CURVE('',#300,#299,#82,.T.);
#346=ADVANCED_FACE('',(#323,#329,#339,#345),#305,.T.);
#353=EDGE_CURVE('',#255,#251,#86,.T.);
#355=EDGE_CURVE('',#251,#252,#95,.T.);
#357=EDGE_CURVE('',#256,#252,#90,.T.);
#361=ADVANCED_FACE('',(#360),#351,.F.);
#369=EDGE_CURVE('',#252,#251,#100,.T.);
#374=ADVANCED_FACE('',(#373),#366,.F.);
#384=ADVANCED_FACE('',(#383),#379,.T.);
#391=EDGE_CURVE('',#272,#263,#104,.T.);
#393=EDGE_CURVE('',#263,#264,#168,.T.);
#395=EDGE_CURVE('',#259,#264,#164,.T.);
#397=EDGE_CURVE('',#271,#259,#116,.T.);
#401=ADVANCED_FACE('',(#400),#389,.T.);
#408=EDGE_CURVE('',#276,#268,#108,.T.);
#410=EDGE_CURVE('',#268,#263,#172,.T.);
#415=ADVANCED_FACE('',(#414),#406,.T.);
#422=EDGE_CURVE('',#260,#275,#124,.T.);
#424=EDGE_CURVE('',#260,#266,#112,.T.);
#426=EDGE_CURVE('',#266,#268,#176,.T.);
#431=ADVANCED_FACE('',(#430),#420,.T.);
#437=EDGE_CURVE('',#271,#275,#128,.T.);
#440=EDGE_CURVE('',#259,#260,#120,.T.);
#445=ADVANCED_FACE('',(#444),#436,.F.);
#453=EDGE_CURVE('',#239,#246,#136,.T.);
#455=EDGE_CURVE('',#244,#246,#152,.T.);
#457=EDGE_CURVE('',#236,#244,#132,.T.);
#462=ADVANCED_FACE('',(#461),#450,.T.);
#469=EDGE_CURVE('',#240,#248,#140,.T.);
#471=EDGE_CURVE('',#246,#248,#156,.T.);
#476=ADVANCED_FACE('',(#475),#467,.T.);
#483=EDGE_CURVE('',#235,#243,#144,.T.);
#485=EDGE_CURVE('',#248,#243,#160,.T.);
#490=ADVANCED_FACE('',(#489),#481,.T.);
#498=EDGE_CURVE('',#243,#244,#148,.T.);
#503=ADVANCED_FACE('',(#502),#495,.T.);
#515=ADVANCED_FACE('',(#514),#508,.F.);
#523=EDGE_CURVE('',#264,#266,#180,.T.);
#528=ADVANCED_FACE('',(#527),#520,.T.);
#540=ADVANCED_FACE('',(#539),#533,.T.);
#547=EDGE_CURVE('',#287,#279,#184,.T.);
#549=EDGE_CURVE('',#279,#280,#200,.T.);
#551=EDGE_CURVE('',#288,#280,#196,.T.);
#555=ADVANCED_FACE('',(#554),#545,.T.);
#562=EDGE_CURVE('',#292,#284,#188,.T.);
#564=EDGE_CURVE('',#284,#279,#205,.T.);
#569=ADVANCED_FACE('',(#568),#560,.T.);
#576=EDGE_CURVE('',#290,#282,#192,.T.);
#578=EDGE_CURVE('',#282,#284,#209,.T.);
#583=ADVANCED_FACE('',(#582),#574,.T.);
#591=EDGE_CURVE('',#280,#282,#214,.T.);
#596=ADVANCED_FACE('',(#595),#588,.T.);
#608=ADVANCED_FACE('',(#607),#601,.T.);
#615=EDGE_CURVE('',#299,#295,#218,.T.);
#617=EDGE_CURVE('',#295,#296,#227,.T.);
#619=EDGE_CURVE('',#300,#296,#222,.T.);
#623=ADVANCED_FACE('',(#622),#613,.T.);
#631=EDGE_CURVE('',#296,#295,#232,.T.);
#636=ADVANCED_FACE('',(#635),#628,.T.);
#646=ADVANCED_FACE('',(#645),#641,.T.);
#656=(GEOMETRIC_REPRESENTATION_CONTEXT(3)GLOBAL_UNCERTAINTY_ASSIGNED_CONTEXT((
#655))GLOBAL_UNIT_ASSIGNED_CONTEXT((#649,#653,#654))REPRESENTATION_CONTEXT
('ID1','3'));
#657=ADVANCED_BREP_SHAPE_REPRESENTATION('',(#648),#656);
#664=PRODUCT_DEFINITION('part definition','',#663,#660);
#665=PRODUCT_DEFINITION_SHAPE('','SHAPE FOR C-7-1393163-6.',#664);
#666=SHAPE_REPRESENTATION('',(#648),#656);
#667=SHAPE_ASPECT('','solid data associated with C-7-1393163-6',#665,.F.);
#668=PROPERTY_DEFINITION('',
'shape for solid data with which properties are associated',#667);
#669=SHAPE_DEFINITION_REPRESENTATION(#668,#666);
#674=PROPERTY_DEFINITION('geometric_validation_property',
'area of C-7-1393163-6',#667);
#675=REPRESENTATION('surface area',(#673),#656);
#676=PROPERTY_DEFINITION_REPRESENTATION(#674,#675);
#681=PROPERTY_DEFINITION('geometric_validation_property',
'volume of C-7-1393163-6',#667);
#682=REPRESENTATION('volume',(#680),#656);
#683=PROPERTY_DEFINITION_REPRESENTATION(#681,#682);
#685=PROPERTY_DEFINITION('geometric_validation_property',
'centroid of C-7-1393163-6',#667);
#686=REPRESENTATION('centroid',(#684),#656);
#687=PROPERTY_DEFINITION_REPRESENTATION(#685,#686);
#688=SHAPE_DEFINITION_REPRESENTATION(#665,#657);
ENDSEC;
END-ISO-10303-21;
